ISO-10303-21;
HEADER;
/* Generated by software containing ST-Developer
 * from STEP Tools, Inc. (www.steptools.com) 
 */

FILE_DESCRIPTION(
/* description */ (''),
/* implementation_level */ '2;1');

FILE_NAME(
/* name */ 'AHN200.dxf',
/* time_stamp */ '2012-11-23T14:41:44+08:00',
/* author */ (''),
/* organization */ (''),
/* preprocessor_version */ 'ST-DEVELOPER v9',
/* originating_system */ 'UGS - NX 4.0',
/* authorisation */ '');

FILE_SCHEMA (('CONFIG_CONTROL_DESIGN'));
ENDSEC;

DATA;
#10=SHAPE_REPRESENTATION_RELATIONSHIP('None',
'relationship between Admi7938xh96-None and Admi7938xh96-None',#94,#11);
#11=ADVANCED_BREP_SHAPE_REPRESENTATION('Admi7938xh96-None',(#95),#287);
#12=CC_DESIGN_APPROVAL(#24,(#82));
#13=CC_DESIGN_APPROVAL(#25,(#84));
#14=CC_DESIGN_APPROVAL(#26,(#31));
#15=APPROVAL_PERSON_ORGANIZATION(#69,#24,#18);
#16=APPROVAL_PERSON_ORGANIZATION(#70,#25,#19);
#17=APPROVAL_PERSON_ORGANIZATION(#71,#26,#20);
#18=APPROVAL_ROLE('approver');
#19=APPROVAL_ROLE('approver');
#20=APPROVAL_ROLE('approver');
#21=APPROVAL_DATE_TIME(#39,#24);
#22=APPROVAL_DATE_TIME(#40,#25);
#23=APPROVAL_DATE_TIME(#41,#26);
#24=APPROVAL(#27,' ');
#25=APPROVAL(#28,' ');
#26=APPROVAL(#29,' ');
#27=APPROVAL_STATUS('not_yet_approved');
#28=APPROVAL_STATUS('not_yet_approved');
#29=APPROVAL_STATUS('not_yet_approved');
#30=CC_DESIGN_SECURITY_CLASSIFICATION(#31,(#84));
#31=SECURITY_CLASSIFICATION(' ',' ',#32);
#32=SECURITY_CLASSIFICATION_LEVEL('confidential');
#33=CC_DESIGN_DATE_AND_TIME_ASSIGNMENT(#37,#35,(#82));
#34=CC_DESIGN_DATE_AND_TIME_ASSIGNMENT(#38,#36,(#31));
#35=DATE_TIME_ROLE('creation_date');
#36=DATE_TIME_ROLE('classification_date');
#37=DATE_AND_TIME(#52,#42);
#38=DATE_AND_TIME(#53,#43);
#39=DATE_AND_TIME(#54,#44);
#40=DATE_AND_TIME(#55,#45);
#41=DATE_AND_TIME(#56,#46);
#42=LOCAL_TIME(0,0,0.,#47);
#43=LOCAL_TIME(0,0,0.,#48);
#44=LOCAL_TIME(0,0,0.,#49);
#45=LOCAL_TIME(0,0,0.,#50);
#46=LOCAL_TIME(0,0,0.,#51);
#47=COORDINATED_UNIVERSAL_TIME_OFFSET(0,0,.BEHIND.);
#48=COORDINATED_UNIVERSAL_TIME_OFFSET(0,0,.BEHIND.);
#49=COORDINATED_UNIVERSAL_TIME_OFFSET(0,0,.BEHIND.);
#50=COORDINATED_UNIVERSAL_TIME_OFFSET(0,0,.BEHIND.);
#51=COORDINATED_UNIVERSAL_TIME_OFFSET(0,0,.BEHIND.);
#52=CALENDAR_DATE(0,1,1);
#53=CALENDAR_DATE(0,1,1);
#54=CALENDAR_DATE(0,1,1);
#55=CALENDAR_DATE(0,1,1);
#56=CALENDAR_DATE(0,1,1);
#57=CC_DESIGN_PERSON_AND_ORGANIZATION_ASSIGNMENT(#65,#61,(#82,#84));
#58=CC_DESIGN_PERSON_AND_ORGANIZATION_ASSIGNMENT(#66,#62,(#86));
#59=CC_DESIGN_PERSON_AND_ORGANIZATION_ASSIGNMENT(#67,#63,(#84));
#60=CC_DESIGN_PERSON_AND_ORGANIZATION_ASSIGNMENT(#68,#64,(#31));
#61=PERSON_AND_ORGANIZATION_ROLE('creator');
#62=PERSON_AND_ORGANIZATION_ROLE('design_owner');
#63=PERSON_AND_ORGANIZATION_ROLE('design_supplier');
#64=PERSON_AND_ORGANIZATION_ROLE('classification_officer');
#65=PERSON_AND_ORGANIZATION(#79,#72);
#66=PERSON_AND_ORGANIZATION(#79,#73);
#67=PERSON_AND_ORGANIZATION(#79,#74);
#68=PERSON_AND_ORGANIZATION(#79,#75);
#69=PERSON_AND_ORGANIZATION(#79,#76);
#70=PERSON_AND_ORGANIZATION(#79,#77);
#71=PERSON_AND_ORGANIZATION(#79,#78);
#72=ORGANIZATION(' ',' ',' ');
#73=ORGANIZATION(' ',' ',' ');
#74=ORGANIZATION(' ',' ',' ');
#75=ORGANIZATION(' ',' ',' ');
#76=ORGANIZATION(' ',' ',' ');
#77=ORGANIZATION(' ',' ',' ');
#78=ORGANIZATION(' ',' ',' ');
#79=PERSON(' ',' ',' ',(' '),$,$);
#80=SHAPE_DEFINITION_REPRESENTATION(#81,#94);
#81=PRODUCT_DEFINITION_SHAPE('','',#82);
#82=PRODUCT_DEFINITION(' ','',#84,#83);
#83=DESIGN_CONTEXT('',#93,'design');
#84=PRODUCT_DEFINITION_FORMATION_WITH_SPECIFIED_SOURCE(' ',' ',#86,.NOT_KNOWN.);
#85=PRODUCT_RELATED_PRODUCT_CATEGORY('detail','',(#86));
#86=PRODUCT('Admi7938xh96','Admi7938xh96',' ',(#91));
#87=PRODUCT_CATEGORY_RELATIONSHIP(' ',' ',#89,#90);
#88=PRODUCT_CATEGORY_RELATIONSHIP('','',#90,#85);
#89=PRODUCT_CATEGORY('part',' ');
#90=PRODUCT_CATEGORY(' ','');
#91=MECHANICAL_CONTEXT(' ',#93,'mechanical');
#92=APPLICATION_PROTOCOL_DEFINITION('international standard',
'config_control_design',1994,#93);
#93=APPLICATION_CONTEXT(
'configuration controlled 3D designs of mechanical parts and assemblies
');
#94=SHAPE_REPRESENTATION('Admi7938xh96-None',(#198),#287);
#95=MANIFOLD_SOLID_BREP('',#96);
#96=CLOSED_SHELL('',(#113,#114,#115,#116,#117,#118,#119,#120,#121,#122));
#97=CYLINDRICAL_SURFACE('',#204,22.5);
#98=CYLINDRICAL_SURFACE('',#214,100.);
#99=CONICAL_SURFACE('',#202,22.5,44.9999999999984);
#100=CONICAL_SURFACE('',#208,48.,61.5570713756364);
#101=CONICAL_SURFACE('',#212,100.,45.0000000000042);
#102=CONICAL_SURFACE('',#216,98.5,45.);
#103=FACE_BOUND('',#136,.T.);
#104=FACE_BOUND('',#138,.T.);
#105=FACE_BOUND('',#139,.T.);
#106=FACE_BOUND('',#140,.T.);
#107=FACE_BOUND('',#142,.T.);
#108=FACE_BOUND('',#144,.T.);
#109=FACE_BOUND('',#146,.T.);
#110=FACE_BOUND('',#148,.T.);
#111=FACE_BOUND('',#149,.T.);
#112=FACE_BOUND('',#151,.T.);
#113=ADVANCED_FACE('',(#127),#123,.F.);
#114=ADVANCED_FACE('',(#103,#128),#99,.T.);
#115=ADVANCED_FACE('',(#104,#105),#97,.T.);
#116=ADVANCED_FACE('',(#106,#129),#124,.F.);
#117=ADVANCED_FACE('',(#107,#130),#100,.T.);
#118=ADVANCED_FACE('',(#108,#131),#125,.F.);
#119=ADVANCED_FACE('',(#109,#132),#101,.T.);
#120=ADVANCED_FACE('',(#110,#111),#98,.T.);
#121=ADVANCED_FACE('',(#133,#112),#102,.T.);
#122=ADVANCED_FACE('',(#134),#126,.F.);
#123=PLANE('',#200);
#124=PLANE('',#206);
#125=PLANE('',#210);
#126=PLANE('',#217);
#127=FACE_OUTER_BOUND('',#135,.T.);
#128=FACE_OUTER_BOUND('',#137,.T.);
#129=FACE_OUTER_BOUND('',#141,.T.);
#130=FACE_OUTER_BOUND('',#143,.T.);
#131=FACE_OUTER_BOUND('',#145,.T.);
#132=FACE_OUTER_BOUND('',#147,.T.);
#133=FACE_OUTER_BOUND('',#150,.T.);
#134=FACE_OUTER_BOUND('',#152,.T.);
#135=EDGE_LOOP('',(#153));
#136=EDGE_LOOP('',(#154));
#137=EDGE_LOOP('',(#155));
#138=EDGE_LOOP('',(#156));
#139=EDGE_LOOP('',(#157));
#140=EDGE_LOOP('',(#158));
#141=EDGE_LOOP('',(#159));
#142=EDGE_LOOP('',(#160));
#143=EDGE_LOOP('',(#161));
#144=EDGE_LOOP('',(#162));
#145=EDGE_LOOP('',(#163));
#146=EDGE_LOOP('',(#164));
#147=EDGE_LOOP('',(#165));
#148=EDGE_LOOP('',(#166));
#149=EDGE_LOOP('',(#167));
#150=EDGE_LOOP('',(#168));
#151=EDGE_LOOP('',(#169));
#152=EDGE_LOOP('',(#170));
#153=ORIENTED_EDGE('',*,*,#180,.T.);
#154=ORIENTED_EDGE('',*,*,#180,.F.);
#155=ORIENTED_EDGE('',*,*,#181,.T.);
#156=ORIENTED_EDGE('',*,*,#181,.F.);
#157=ORIENTED_EDGE('',*,*,#182,.T.);
#158=ORIENTED_EDGE('',*,*,#182,.F.);
#159=ORIENTED_EDGE('',*,*,#183,.T.);
#160=ORIENTED_EDGE('',*,*,#183,.F.);
#161=ORIENTED_EDGE('',*,*,#184,.T.);
#162=ORIENTED_EDGE('',*,*,#184,.F.);
#163=ORIENTED_EDGE('',*,*,#185,.T.);
#164=ORIENTED_EDGE('',*,*,#185,.F.);
#165=ORIENTED_EDGE('',*,*,#186,.T.);
#166=ORIENTED_EDGE('',*,*,#186,.F.);
#167=ORIENTED_EDGE('',*,*,#187,.T.);
#168=ORIENTED_EDGE('',*,*,#187,.F.);
#169=ORIENTED_EDGE('',*,*,#188,.T.);
#170=ORIENTED_EDGE('',*,*,#188,.F.);
#171=VERTEX_POINT('',#260);
#172=VERTEX_POINT('',#263);
#173=VERTEX_POINT('',#266);
#174=VERTEX_POINT('',#269);
#175=VERTEX_POINT('',#272);
#176=VERTEX_POINT('',#275);
#177=VERTEX_POINT('',#278);
#178=VERTEX_POINT('',#281);
#179=VERTEX_POINT('',#284);
#180=EDGE_CURVE('',#171,#171,#189,.T.);
#181=EDGE_CURVE('',#172,#172,#190,.T.);
#182=EDGE_CURVE('',#173,#173,#191,.T.);
#183=EDGE_CURVE('',#174,#174,#192,.T.);
#184=EDGE_CURVE('',#175,#175,#193,.T.);
#185=EDGE_CURVE('',#176,#176,#194,.T.);
#186=EDGE_CURVE('',#177,#177,#195,.T.);
#187=EDGE_CURVE('',#178,#178,#196,.T.);
#188=EDGE_CURVE('',#179,#179,#197,.T.);
#189=CIRCLE('',#199,20.5000000000001);
#190=CIRCLE('',#201,22.5);
#191=CIRCLE('',#203,22.5);
#192=CIRCLE('',#205,24.);
#193=CIRCLE('',#207,48.);
#194=CIRCLE('',#209,98.5);
#195=CIRCLE('',#211,100.);
#196=CIRCLE('',#213,100.);
#197=CIRCLE('',#215,98.5);
#198=AXIS2_PLACEMENT_3D('',#258,#218,#219);
#199=AXIS2_PLACEMENT_3D('',#259,#220,#221);
#200=AXIS2_PLACEMENT_3D('',#261,#222,#223);
#201=AXIS2_PLACEMENT_3D('',#262,#224,#225);
#202=AXIS2_PLACEMENT_3D('',#264,#226,#227);
#203=AXIS2_PLACEMENT_3D('',#265,#228,#229);
#204=AXIS2_PLACEMENT_3D('',#267,#230,#231);
#205=AXIS2_PLACEMENT_3D('',#268,#232,#233);
#206=AXIS2_PLACEMENT_3D('',#270,#234,#235);
#207=AXIS2_PLACEMENT_3D('',#271,#236,#237);
#208=AXIS2_PLACEMENT_3D('',#273,#238,#239);
#209=AXIS2_PLACEMENT_3D('',#274,#240,#241);
#210=AXIS2_PLACEMENT_3D('',#276,#242,#243);
#211=AXIS2_PLACEMENT_3D('',#277,#244,#245);
#212=AXIS2_PLACEMENT_3D('',#279,#246,#247);
#213=AXIS2_PLACEMENT_3D('',#280,#248,#249);
#214=AXIS2_PLACEMENT_3D('',#282,#250,#251);
#215=AXIS2_PLACEMENT_3D('',#283,#252,#253);
#216=AXIS2_PLACEMENT_3D('',#285,#254,#255);
#217=AXIS2_PLACEMENT_3D('',#286,#256,#257);
#218=DIRECTION('',(0.,0.,1.));
#219=DIRECTION('',(1.,0.,0.));
#220=DIRECTION('',(1.,0.,0.));
#221=DIRECTION('',(0.,0.,-1.));
#222=DIRECTION('',(-1.,0.,0.));
#223=DIRECTION('',(0.,0.,1.));
#224=DIRECTION('',(1.,0.,0.));
#225=DIRECTION('',(0.,0.,-1.));
#226=DIRECTION('',(-1.,0.,0.));
#227=DIRECTION('',(0.,0.,1.));
#228=DIRECTION('',(1.,0.,0.));
#229=DIRECTION('',(0.,0.,-1.));
#230=DIRECTION('',(1.,0.,0.));
#231=DIRECTION('',(0.,0.,-1.));
#232=DIRECTION('',(1.,0.,0.));
#233=DIRECTION('',(0.,0.,-1.));
#234=DIRECTION('',(-1.,0.,0.));
#235=DIRECTION('',(0.,0.,1.));
#236=DIRECTION('',(1.,0.,0.));
#237=DIRECTION('',(0.,0.,-1.));
#238=DIRECTION('',(-1.,0.,0.));
#239=DIRECTION('',(0.,0.,1.));
#240=DIRECTION('',(1.,0.,0.));
#241=DIRECTION('',(0.,0.,-1.));
#242=DIRECTION('',(-1.,0.,0.));
#243=DIRECTION('',(0.,0.,1.));
#244=DIRECTION('',(1.,0.,0.));
#245=DIRECTION('',(0.,0.,-1.));
#246=DIRECTION('',(-1.,0.,0.));
#247=DIRECTION('',(0.,0.,1.));
#248=DIRECTION('',(1.,0.,0.));
#249=DIRECTION('',(0.,0.,-1.));
#250=DIRECTION('',(1.,0.,0.));
#251=DIRECTION('',(0.,0.,-1.));
#252=DIRECTION('',(1.,0.,0.));
#253=DIRECTION('',(0.,0.,-1.));
#254=DIRECTION('',(1.,0.,0.));
#255=DIRECTION('',(-1.01067184763328E-016,0.,-1.));
#256=DIRECTION('',(1.,0.,0.));
#257=DIRECTION('',(0.,0.,-1.));
#258=CARTESIAN_POINT('',(0.,0.,0.));
#259=CARTESIAN_POINT('',(595.5,653.5,0.));
#260=CARTESIAN_POINT('',(595.5,653.5,-20.5000000000001));
#261=CARTESIAN_POINT('',(595.5,674.,0.));
#262=CARTESIAN_POINT('',(593.5,653.5,0.));
#263=CARTESIAN_POINT('',(593.5,653.5,-22.5));
#264=CARTESIAN_POINT('',(593.5,653.5,0.));
#265=CARTESIAN_POINT('',(572.5,653.5,0.));
#266=CARTESIAN_POINT('',(572.5,653.5,-22.5));
#267=CARTESIAN_POINT('',(608.,653.5,0.));
#268=CARTESIAN_POINT('',(572.5,653.5,0.));
#269=CARTESIAN_POINT('',(572.5,653.5,-24.));
#270=CARTESIAN_POINT('',(572.5,677.5,0.));
#271=CARTESIAN_POINT('',(559.5,653.5,0.));
#272=CARTESIAN_POINT('',(559.5,653.5,-48.));
#273=CARTESIAN_POINT('',(559.5,653.5,0.));
#274=CARTESIAN_POINT('',(559.5,653.5,0.));
#275=CARTESIAN_POINT('',(559.5,653.5,-98.5));
#276=CARTESIAN_POINT('',(559.5,752.,0.));
#277=CARTESIAN_POINT('',(558.,653.5,0.));
#278=CARTESIAN_POINT('',(558.,653.5,-100.));
#279=CARTESIAN_POINT('',(558.,653.5,0.));
#280=CARTESIAN_POINT('',(541.,653.5,0.));
#281=CARTESIAN_POINT('',(541.,653.5,-100.));
#282=CARTESIAN_POINT('',(608.,653.5,0.));
#283=CARTESIAN_POINT('',(539.5,653.5,0.));
#284=CARTESIAN_POINT('',(539.5,653.5,-98.5));
#285=CARTESIAN_POINT('',(539.5,653.5,0.));
#286=CARTESIAN_POINT('',(539.5,653.5,0.));
#287=(
GEOMETRIC_REPRESENTATION_CONTEXT(3)
GLOBAL_UNCERTAINTY_ASSIGNED_CONTEXT((#288))
GLOBAL_UNIT_ASSIGNED_CONTEXT((#294,#290,#289))
REPRESENTATION_CONTEXT('AHN200','TOP_LEVEL_ASSEMBLY_PART')
);
#288=UNCERTAINTY_MEASURE_WITH_UNIT(LENGTH_MEASURE(2.E-005),#294,
'DISTANCE_ACCURACY_VALUE','Maximum Tolerance applied to model');
#289=(
NAMED_UNIT(*)
SI_UNIT($,.STERADIAN.)
SOLID_ANGLE_UNIT()
);
#290=(
CONVERSION_BASED_UNIT('DEGREE',#292)
NAMED_UNIT(#291)
PLANE_ANGLE_UNIT()
);
#291=DIMENSIONAL_EXPONENTS(0.,0.,0.,0.,0.,0.,0.);
#292=PLANE_ANGLE_MEASURE_WITH_UNIT(PLANE_ANGLE_MEASURE(0.0174532925),#293);
#293=(
NAMED_UNIT(*)
PLANE_ANGLE_UNIT()
SI_UNIT($,.RADIAN.)
);
#294=(
LENGTH_UNIT()
NAMED_UNIT(*)
SI_UNIT(.MILLI.,.METRE.)
);
ENDSEC;
END-ISO-10303-21;
